ISO-10303-21;
HEADER;
FILE_DESCRIPTION (( 'STEP AP203' ),
    '1' );
FILE_NAME ('BK7-LPDBSP-25.4-490.STEP',
    '2020-12-22T02:18:21',
    ( '' ),
    ( '' ),
    'SwSTEP 2.0',
    'SolidWorks 2020',
    '' );
FILE_SCHEMA (( 'CONFIG_CONTROL_DESIGN' ));
ENDSEC;

DATA;
#1 = CALENDAR_DATE ( 2020, 22, 12 ) ;
#2 = APPROVAL ( #163, 'UNSPECIFIED' ) ;
#3 = LINE ( 'NONE', #118, #128 ) ;
#4 = CALENDAR_DATE ( 2020, 22, 12 ) ;
#5 = ADVANCED_FACE ( 'NONE', ( #133 ), #158, .F. ) ;
#6 = CARTESIAN_POINT ( 'NONE',  ( -1.187907395172932594E-15, 1.555301434917138433E-15, -12.69999999999999929 ) ) ;
#7 = DIRECTION ( 'NONE',  ( 0.000000000000000000, 0.000000000000000000, 1.000000000000000000 ) ) ;
#8 = PERSON ( 'UNSPECIFIED', 'UNSPECIFIED', 'UNSPECIFIED', ('UNSPECIFIED'), ('UNSPECIFIED'), ('UNSPECIFIED') ) ;
#9 = LINE ( 'NONE', #69, #10 ) ;
#10 = VECTOR ( 'NONE', #19, 1000.000000000000000 ) ;
#11 = CC_DESIGN_PERSON_AND_ORGANIZATION_ASSIGNMENT ( #117, #53, ( #72 ) ) ;
#12 = EDGE_CURVE ( 'NONE', #164, #125, #3, .T. ) ;
#13 = APPLICATION_PROTOCOL_DEFINITION ( 'international standard', 'config_control_design', 1994, #96 ) ;
#14 = PERSON_AND_ORGANIZATION ( #8, #50 ) ;
#15 = ORIENTED_EDGE ( 'NONE', *, *, #142, .T. ) ;
#16 = CYLINDRICAL_SURFACE ( 'NONE', #149, 12.69999999999999929 ) ;
#17 = PERSON_AND_ORGANIZATION ( #8, #50 ) ;
#18 = AXIS2_PLACEMENT_3D ( 'NONE', #45, #169, #152 ) ;
#19 = DIRECTION ( 'NONE',  ( -1.000000000000000000, -0.000000000000000000, -0.000000000000000000 ) ) ;
#20 = LOCAL_TIME ( 10, 18, 21.00000000000000000, #39 ) ;
#21 = DIRECTION ( 'NONE',  ( 1.000000000000000000, 0.000000000000000000, 0.000000000000000000 ) ) ;
#22 = CLOSED_SHELL ( 'NONE', ( #49, #110, #5, #153 ) ) ;
#23 = AXIS2_PLACEMENT_3D ( 'NONE', #129, #7, #168 ) ;
#24 = CC_DESIGN_PERSON_AND_ORGANIZATION_ASSIGNMENT ( #17, #173, ( #86 ) ) ;
#25 = ORIENTED_EDGE ( 'NONE', *, *, #58, .T. ) ;
#26 = DIRECTION ( 'NONE',  ( 0.000000000000000000, 0.000000000000000000, 1.000000000000000000 ) ) ;
#27 = CALENDAR_DATE ( 2020, 22, 12 ) ;
#28 = MANIFOLD_SOLID_BREP ( 'Ðý×', #22 ) ;
#29 = EDGE_LOOP ( 'NONE', ( #38, #60 ) ) ;
#30 = LOCAL_TIME ( 10, 18, 21.00000000000000000, #157 ) ;
#31 = DIRECTION ( 'NONE',  ( -1.000000000000000000, -0.000000000000000000, -0.000000000000000000 ) ) ;
#32 = CIRCLE ( 'NONE', #98, 12.69999999999999929 ) ;
#33 = AXIS2_PLACEMENT_3D ( 'NONE', #151, #35, #175 ) ;
#34 = CALENDAR_DATE ( 2020, 22, 12 ) ;
#35 = DIRECTION ( 'NONE',  ( -1.000000000000000000, -0.000000000000000000, -0.000000000000000000 ) ) ;
#36 = PERSON_AND_ORGANIZATION ( #8, #50 ) ;
#37 = APPROVAL ( #172, 'UNSPECIFIED' ) ;
#38 = ORIENTED_EDGE ( 'NONE', *, *, #114, .F. ) ;
#39 = COORDINATED_UNIVERSAL_TIME_OFFSET ( 8, 0, .AHEAD. ) ;
#40 = VERTEX_POINT ( 'NONE', #42 ) ;
#41 = APPROVAL_DATE_TIME ( #147, #2 ) ;
#42 = CARTESIAN_POINT ( 'NONE',  ( -1.187907395172932594E-15, 0.000000000000000000, 12.69999999999999929 ) ) ;
#43 = CARTESIAN_POINT ( 'NONE',  ( 3.499999999999998224, 0.000000000000000000, 0.000000000000000000 ) ) ;
#44 = DIRECTION ( 'NONE',  ( 0.000000000000000000, 0.000000000000000000, 1.000000000000000000 ) ) ;
#45 = CARTESIAN_POINT ( 'NONE',  ( -1.187907395172932594E-15, 0.000000000000000000, 0.000000000000000000 ) ) ;
#46 = CC_DESIGN_APPROVAL ( #2, ( #70 ) ) ;
#47 = CARTESIAN_POINT ( 'NONE',  ( -5.939536975864662969E-16, 12.69999999999999929, 0.000000000000000000 ) ) ;
#48 = PLANE ( 'NONE',  #115 ) ;
#49 = ADVANCED_FACE ( 'NONE', ( #174 ), #102, .T. ) ;
#50 = ORGANIZATION ( 'UNSPECIFIED', 'UNSPECIFIED', '' ) ;
#51 = AXIS2_PLACEMENT_3D ( 'NONE', #127, #139, #154 ) ;
#52 = APPROVAL_PERSON_ORGANIZATION ( #36, #2, #104 ) ;
#53 = PERSON_AND_ORGANIZATION_ROLE ( 'design_supplier' ) ;
#54 = ORIENTED_EDGE ( 'NONE', *, *, #142, .F. ) ;
#55 = APPROVAL_PERSON_ORGANIZATION ( #14, #37, #150 ) ;
#56 = VERTEX_POINT ( 'NONE', #93 ) ;
#57 = FACE_OUTER_BOUND ( 'NONE', #105, .T. ) ;
#58 = EDGE_CURVE ( 'NONE', #125, #40, #138, .T. ) ;
#59 = DATE_TIME_ROLE ( 'creation_date' ) ;
#60 = ORIENTED_EDGE ( 'NONE', *, *, #121, .F. ) ;
#61 = APPROVAL_DATE_TIME ( #82, #37 ) ;
#62 = ORIENTED_EDGE ( 'NONE', *, *, #12, .T. ) ;
#63 = ORIENTED_EDGE ( 'NONE', *, *, #58, .F. ) ;
#64 =( GEOMETRIC_REPRESENTATION_CONTEXT ( 3 ) GLOBAL_UNCERTAINTY_ASSIGNED_CONTEXT ( ( #95 ) ) GLOBAL_UNIT_ASSIGNED_CONTEXT ( ( #112, #97, #106 ) ) REPRESENTATION_CONTEXT ( 'NONE', 'WORKASPACE' ) );
#65 = COORDINATED_UNIVERSAL_TIME_OFFSET ( 8, 0, .AHEAD. ) ;
#66 = CC_DESIGN_SECURITY_CLASSIFICATION ( #116, ( #72 ) ) ;
#67 = CARTESIAN_POINT ( 'NONE',  ( 3.499999999999999112, 12.69999999999999929, 0.000000000000000000 ) ) ;
#68 = AXIS2_PLACEMENT_3D ( 'NONE', #67, #135, #83 ) ;
#69 = CARTESIAN_POINT ( 'NONE',  ( 0.000000000000000000, 0.000000000000000000, 12.69999999999999929 ) ) ;
#70 = PRODUCT_DEFINITION ( 'UNKNOWN', '', #72, #107 ) ;
#71 = APPLICATION_PROTOCOL_DEFINITION ( 'international standard', 'config_control_design', 1994, #109 ) ;
#72 = PRODUCT_DEFINITION_FORMATION_WITH_SPECIFIED_SOURCE ( 'ANY', '', #86, .NOT_KNOWN. ) ;
#73 = CC_DESIGN_PERSON_AND_ORGANIZATION_ASSIGNMENT ( #99, #119, ( #116 ) ) ;
#74 = COORDINATED_UNIVERSAL_TIME_OFFSET ( 8, 0, .AHEAD. ) ;
#75 = PERSON_AND_ORGANIZATION ( #8, #50 ) ;
#76 = ORIENTED_EDGE ( 'NONE', *, *, #12, .F. ) ;
#77 = SHAPE_DEFINITION_REPRESENTATION ( #85, #91 ) ;
#78 = PERSON_AND_ORGANIZATION ( #8, #50 ) ;
#79 = FACE_OUTER_BOUND ( 'NONE', #90, .T. ) ;
#80 = ORIENTED_EDGE ( 'NONE', *, *, #171, .T. ) ;
#81 = CC_DESIGN_PERSON_AND_ORGANIZATION_ASSIGNMENT ( #75, #123, ( #70 ) ) ;
#82 = DATE_AND_TIME ( #27, #111 ) ;
#83 = DIRECTION ( 'NONE',  ( -0.000000000000000000, 0.000000000000000000, 1.000000000000000000 ) ) ;
#84 = LOCAL_TIME ( 10, 18, 21.00000000000000000, #65 ) ;
#85 = PRODUCT_DEFINITION_SHAPE ( 'NONE', 'NONE',  #70 ) ;
#86 = PRODUCT ( 'BK7-LPDBSP-25.4-490', 'BK7-LPDBSP-25.4-490', '', ( #130 ) ) ;
#87 = APPROVAL_PERSON_ORGANIZATION ( #78, #124, #136 ) ;
#88 = SECURITY_CLASSIFICATION_LEVEL ( 'unclassified' ) ;
#89 = ORIENTED_EDGE ( 'NONE', *, *, #114, .T. ) ;
#90 = EDGE_LOOP ( 'NONE', ( #76, #160, #15, #63 ) ) ;
#91 = ADVANCED_BREP_SHAPE_REPRESENTATION ( 'BK7-LPDBSP-25.4-490', ( #28, #23 ), #64 ) ;
#92 = DATE_AND_TIME ( #1, #84 ) ;
#93 = CARTESIAN_POINT ( 'NONE',  ( 3.499999999999998224, 0.000000000000000000, 12.69999999999999929 ) ) ;
#94 = APPROVAL_STATUS ( 'not_yet_approved' ) ;
#95 = UNCERTAINTY_MEASURE_WITH_UNIT (LENGTH_MEASURE( 1.000000000000000082E-05 ), #112, 'distance_accuracy_value', 'NONE');
#96 = APPLICATION_CONTEXT ( 'configuration controlled 3d designs of mechanical parts and assemblies' ) ;
#97 =( NAMED_UNIT ( * ) PLANE_ANGLE_UNIT ( ) SI_UNIT ( $, .RADIAN. ) );
#98 = AXIS2_PLACEMENT_3D ( 'NONE', #43, #31, #137 ) ;
#99 = PERSON_AND_ORGANIZATION ( #8, #50 ) ;
#100 = EDGE_LOOP ( 'NONE', ( #89, #62, #131, #54 ) ) ;
#101 = CALENDAR_DATE ( 2020, 22, 12 ) ;
#102 = CYLINDRICAL_SURFACE ( 'NONE', #113, 12.69999999999999929 ) ;
#103 = CARTESIAN_POINT ( 'NONE',  ( 0.000000000000000000, 0.000000000000000000, 0.000000000000000000 ) ) ;
#104 = APPROVAL_ROLE ( '' ) ;
#105 = EDGE_LOOP ( 'NONE', ( #80, #25 ) ) ;
#106 =( NAMED_UNIT ( * ) SI_UNIT ( $, .STERADIAN. ) SOLID_ANGLE_UNIT ( ) );
#107 = DESIGN_CONTEXT ( 'detailed design', #96, 'design' ) ;
#108 = CARTESIAN_POINT ( 'NONE',  ( 3.499999999999998224, 1.555301434917138433E-15, -12.69999999999999929 ) ) ;
#109 = APPLICATION_CONTEXT ( 'configuration controlled 3d designs of mechanical parts and assemblies' ) ;
#110 = ADVANCED_FACE ( 'NONE', ( #79 ), #16, .T. ) ;
#111 = LOCAL_TIME ( 10, 18, 21.00000000000000000, #74 ) ;
#112 =( LENGTH_UNIT ( ) NAMED_UNIT ( * ) SI_UNIT ( .MILLI., .METRE. ) );
#113 = AXIS2_PLACEMENT_3D ( 'NONE', #122, #145, #26 ) ;
#114 = EDGE_CURVE ( 'NONE', #56, #164, #32, .T. ) ;
#115 = AXIS2_PLACEMENT_3D ( 'NONE', #47, #21, #126 ) ;
#116 = SECURITY_CLASSIFICATION ( '', '', #88 ) ;
#117 = PERSON_AND_ORGANIZATION ( #8, #50 ) ;
#118 = CARTESIAN_POINT ( 'NONE',  ( 0.000000000000000000, 1.555301434917138433E-15, -12.69999999999999929 ) ) ;
#119 = PERSON_AND_ORGANIZATION_ROLE ( 'classification_officer' ) ;
#120 = DIRECTION ( 'NONE',  ( -1.000000000000000000, -0.000000000000000000, -0.000000000000000000 ) ) ;
#121 = EDGE_CURVE ( 'NONE', #164, #56, #170, .T. ) ;
#122 = CARTESIAN_POINT ( 'NONE',  ( 0.000000000000000000, 0.000000000000000000, 0.000000000000000000 ) ) ;
#123 = PERSON_AND_ORGANIZATION_ROLE ( 'creator' ) ;
#124 = APPROVAL ( #94, 'UNSPECIFIED' ) ;
#125 = VERTEX_POINT ( 'NONE', #6 ) ;
#126 = DIRECTION ( 'NONE',  ( 0.000000000000000000, 0.000000000000000000, -1.000000000000000000 ) ) ;
#127 = CARTESIAN_POINT ( 'NONE',  ( 3.499999999999998224, 0.000000000000000000, 0.000000000000000000 ) ) ;
#128 = VECTOR ( 'NONE', #120, 1000.000000000000000 ) ;
#129 = CARTESIAN_POINT ( 'NONE',  ( 0.000000000000000000, 0.000000000000000000, 0.000000000000000000 ) ) ;
#130 = MECHANICAL_CONTEXT ( 'NONE', #109, 'mechanical' ) ;
#131 = ORIENTED_EDGE ( 'NONE', *, *, #171, .F. ) ;
#132 = DATE_AND_TIME ( #4, #161 ) ;
#133 = FACE_OUTER_BOUND ( 'NONE', #29, .T. ) ;
#134 = PERSON_AND_ORGANIZATION ( #8, #50 ) ;
#135 = DIRECTION ( 'NONE',  ( -1.000000000000000000, 0.000000000000000000, -0.000000000000000000 ) ) ;
#136 = APPROVAL_ROLE ( '' ) ;
#137 = DIRECTION ( 'NONE',  ( 0.000000000000000000, 0.000000000000000000, 1.000000000000000000 ) ) ;
#138 = CIRCLE ( 'NONE', #33, 12.69999999999999929 ) ;
#139 = DIRECTION ( 'NONE',  ( -1.000000000000000000, -0.000000000000000000, -0.000000000000000000 ) ) ;
#140 = CC_DESIGN_APPROVAL ( #124, ( #116 ) ) ;
#141 = CC_DESIGN_APPROVAL ( #37, ( #72 ) ) ;
#142 = EDGE_CURVE ( 'NONE', #56, #40, #9, .T. ) ;
#143 = PERSON_AND_ORGANIZATION_ROLE ( 'creator' ) ;
#144 = DATE_TIME_ROLE ( 'classification_date' ) ;
#145 = DIRECTION ( 'NONE',  ( -1.000000000000000000, -0.000000000000000000, -0.000000000000000000 ) ) ;
#146 = APPROVAL_DATE_TIME ( #132, #124 ) ;
#147 = DATE_AND_TIME ( #34, #20 ) ;
#148 = CC_DESIGN_DATE_AND_TIME_ASSIGNMENT ( #92, #59, ( #70 ) ) ;
#149 = AXIS2_PLACEMENT_3D ( 'NONE', #103, #162, #44 ) ;
#150 = APPROVAL_ROLE ( '' ) ;
#151 = CARTESIAN_POINT ( 'NONE',  ( -1.187907395172932594E-15, 0.000000000000000000, 0.000000000000000000 ) ) ;
#152 = DIRECTION ( 'NONE',  ( 0.000000000000000000, 0.000000000000000000, 1.000000000000000000 ) ) ;
#153 = ADVANCED_FACE ( 'NONE', ( #57 ), #48, .F. ) ;
#154 = DIRECTION ( 'NONE',  ( 0.000000000000000000, 0.000000000000000000, 1.000000000000000000 ) ) ;
#155 = CC_DESIGN_DATE_AND_TIME_ASSIGNMENT ( #159, #144, ( #116 ) ) ;
#156 = PRODUCT_RELATED_PRODUCT_CATEGORY ( 'detail', '', ( #86 ) ) ;
#157 = COORDINATED_UNIVERSAL_TIME_OFFSET ( 8, 0, .AHEAD. ) ;
#158 = PLANE ( 'NONE',  #68 ) ;
#159 = DATE_AND_TIME ( #101, #30 ) ;
#160 = ORIENTED_EDGE ( 'NONE', *, *, #121, .T. ) ;
#161 = LOCAL_TIME ( 10, 18, 21.00000000000000000, #165 ) ;
#162 = DIRECTION ( 'NONE',  ( -1.000000000000000000, -0.000000000000000000, -0.000000000000000000 ) ) ;
#163 = APPROVAL_STATUS ( 'not_yet_approved' ) ;
#164 = VERTEX_POINT ( 'NONE', #108 ) ;
#165 = COORDINATED_UNIVERSAL_TIME_OFFSET ( 8, 0, .AHEAD. ) ;
#166 = CIRCLE ( 'NONE', #18, 12.69999999999999929 ) ;
#167 = CC_DESIGN_PERSON_AND_ORGANIZATION_ASSIGNMENT ( #134, #143, ( #72 ) ) ;
#168 = DIRECTION ( 'NONE',  ( 1.000000000000000000, 0.000000000000000000, 0.000000000000000000 ) ) ;
#169 = DIRECTION ( 'NONE',  ( -1.000000000000000000, -0.000000000000000000, -0.000000000000000000 ) ) ;
#170 = CIRCLE ( 'NONE', #51, 12.69999999999999929 ) ;
#171 = EDGE_CURVE ( 'NONE', #40, #125, #166, .T. ) ;
#172 = APPROVAL_STATUS ( 'not_yet_approved' ) ;
#173 = PERSON_AND_ORGANIZATION_ROLE ( 'design_owner' ) ;
#174 = FACE_OUTER_BOUND ( 'NONE', #100, .T. ) ;
#175 = DIRECTION ( 'NONE',  ( 0.000000000000000000, 0.000000000000000000, 1.000000000000000000 ) ) ;
ENDSEC;
END-ISO-10303-21;
